  0
SECTION
  2
HEADER
  9
$ACADVER
  1
AC1015
  9
$ACADMAINTVER
 70
     6
  9
$DWGCODEPAGE
  3
ANSI_1254
  9
$INSBASE
 10
0.0
 20
0.0
 30
0.0
  9
$EXTMIN
 10
0.0
 20
0.0
 30
0.0
  9
$EXTMAX
 10
279.4
 20
215.9
 30
0.0
  9
$LIMMIN
 10
0.0
 20
0.0
  9
$LIMMAX
 10
279.4
 20
215.9
  9
$ORTHOMODE
 70
     0
  9
$REGENMODE
 70
     1
  9
$FILLMODE
 70
     1
  9
$QTEXTMODE
 70
     0
  9
$MIRRTEXT
 70
     1
  9
$LTSCALE
 40
1.0
  9
$ATTMODE
 70
     1
  9
$TEXTSIZE
 40
3.5
  9
$TRACEWID
 40
1.0
  9
$TEXTSTYLE
  7
Standard
  9
$CLAYER
  8
0
  9
$CELTYPE
  6
ByLayer
  9
$CECOLOR
 62
   256
  9
$CELTSCALE
 40
1.0
  9
$DISPSILH
 70
     0
  9
$DIMSCALE
 40
1.0
  9
$DIMASZ
 40
3.5
  9
$DIMEXO
 40
1.0
  9
$DIMDLI
 40
3.75
  9
$DIMRND
 40
0.0
  9
$DIMDLE
 40
0.0
  9
$DIMEXE
 40
1.0
  9
$DIMTP
 40
0.0
  9
$DIMTM
 40
0.0
  9
$DIMTXT
 40
3.5
  9
$DIMCEN
 40
2.5
  9
$DIMTSZ
 40
0.0
  9
$DIMTOL
 70
     0
  9
$DIMLIM
 70
     0
  9
$DIMTIH
 70
     1
  9
$DIMTOH
 70
     1
  9
$DIMSE1
 70
     0
  9
$DIMSE2
 70
     0
  9
$DIMTAD
 70
     1
  9
$DIMZIN
 70
     0
  9
$DIMBLK
  1

  9
$DIMASO
 70
     1
  9
$DIMSHO
 70
     1
  9
$DIMPOST
  1

  9
$DIMAPOST
  1

  9
$DIMALT
 70
     0
  9
$DIMALTD
 70
     3
  9
$DIMALTF
 40
0.0393700787
  9
$DIMLFAC
 40
1.0
  9
$DIMTOFL
 70
     1
  9
$DIMTVP
 40
0.0
  9
$DIMTIX
 70
     0
  9
$DIMSOXD
 70
     0
  9
$DIMSAH
 70
     0
  9
$DIMBLK1
  1

  9
$DIMBLK2
  1

  9
$DIMSTYLE
  2
ISO-25
  9
$DIMCLRD
 70
     0
  9
$DIMCLRE
 70
     0
  9
$DIMCLRT
 70
     0
  9
$DIMTFAC
 40
1.0
  9
$DIMGAP
 40
1.524
  9
$DIMJUST
 70
     0
  9
$DIMSD1
 70
     0
  9
$DIMSD2
 70
     0
  9
$DIMTOLJ
 70
     0
  9
$DIMTZIN
 70
     0
  9
$DIMALTZ
 70
     0
  9
$DIMALTTZ
 70
     0
  9
$DIMUPT
 70
     0
  9
$DIMDEC
 70
     2
  9
$DIMTDEC
 70
     2
  9
$DIMALTU
 70
     2
  9
$DIMALTTD
 70
     3
  9
$DIMTXSTY
  7
Standard
  9
$DIMAUNIT
 70
     0
  9
$DIMADEC
 70
     2
  9
$DIMALTRND
 40
0.0
  9
$DIMAZIN
 70
     0
  9
$DIMDSEP
 70
    44
  9
$DIMATFIT
 70
     3
  9
$DIMFRAC
 70
     0
  9
$DIMLDRBLK
  1

  9
$DIMLUNIT
 70
     2
  9
$DIMLWD
 70
    -2
  9
$DIMLWE
 70
    -2
  9
$DIMTMOVE
 70
     0
  9
$LUNITS
 70
     2
  9
$LUPREC
 70
     2
  9
$SKETCHINC
 40
1.0
  9
$FILLETRAD
 40
10.0
  9
$AUNITS
 70
     0
  9
$AUPREC
 70
     2
  9
$MENU
  1
.
  9
$ELEVATION
 40
0.0
  9
$PELEVATION
 40
0.0
  9
$THICKNESS
 40
0.0
  9
$LIMCHECK
 70
     0
  9
$CHAMFERA
 40
0.0
  9
$CHAMFERB
 40
0.0
  9
$CHAMFERC
 40
0.0
  9
$CHAMFERD
 40
0.0
  9
$SKPOLY
 70
     0
  9
$TDCREATE
 40
2458985.705449768
  9
$TDUCREATE
 40
2458985.580449768
  9
$TDUPDATE
 40
2458985.705450116
  9
$TDUUPDATE
 40
2458985.580450116
  9
$TDINDWG
 40
0.0000000116
  9
$TDUSRTIMER
 40
0.0000000116
  9
$USRTIMER
 70
     1
  9
$ANGBASE
 50
0.0
  9
$ANGDIR
 70
     0
  9
$PDMODE
 70
     0
  9
$PDSIZE
 40
-1.0
  9
$PLINEWID
 40
0.0
  9
$SPLFRAME
 70
     0
  9
$SPLINETYPE
 70
     6
  9
$SPLINESEGS
 70
     8
  9
$HANDSEED
  5
ED
  9
$SURFTAB1
 70
     6
  9
$SURFTAB2
 70
     6
  9
$SURFTYPE
 70
     6
  9
$SURFU
 70
     6
  9
$SURFV
 70
     6
  9
$UCSBASE
  2

  9
$UCSNAME
  2

  9
$UCSORG
 10
0.0
 20
0.0
 30
0.0
  9
$UCSXDIR
 10
1.0
 20
0.0
 30
0.0
  9
$UCSYDIR
 10
0.0
 20
1.0
 30
0.0
  9
$UCSORTHOREF
  2

  9
$UCSORTHOVIEW
 70
     0
  9
$UCSORGTOP
 10
0.0
 20
0.0
 30
0.0
  9
$UCSORGBOTTOM
 10
0.0
 20
0.0
 30
0.0
  9
$UCSORGLEFT
 10
0.0
 20
0.0
 30
0.0
  9
$UCSORGRIGHT
 10
0.0
 20
0.0
 30
0.0
  9
$UCSORGFRONT
 10
0.0
 20
0.0
 30
0.0
  9
$UCSORGBACK
 10
0.0
 20
0.0
 30
0.0
  9
$PUCSBASE
  2

  9
$PUCSNAME
  2

  9
$PUCSORG
 10
0.0
 20
0.0
 30
0.0
  9
$PUCSXDIR
 10
1.0
 20
0.0
 30
0.0
  9
$PUCSYDIR
 10
0.0
 20
1.0
 30
0.0
  9
$PUCSORTHOREF
  2

  9
$PUCSORTHOVIEW
 70
     0
  9
$PUCSORGTOP
 10
0.0
 20
0.0
 30
0.0
  9
$PUCSORGBOTTOM
 10
0.0
 20
0.0
 30
0.0
  9
$PUCSORGLEFT
 10
0.0
 20
0.0
 30
0.0
  9
$PUCSORGRIGHT
 10
0.0
 20
0.0
 30
0.0
  9
$PUCSORGFRONT
 10
0.0
 20
0.0
 30
0.0
  9
$PUCSORGBACK
 10
0.0
 20
0.0
 30
0.0
  9
$USERI1
 70
     0
  9
$USERI2
 70
     0
  9
$USERI3
 70
     0
  9
$USERI4
 70
     0
  9
$USERI5
 70
     0
  9
$USERR1
 40
0.0
  9
$USERR2
 40
0.0
  9
$USERR3
 40
0.0
  9
$USERR4
 40
0.0
  9
$USERR5
 40
0.0
  9
$WORLDVIEW
 70
     1
  9
$SHADEDGE
 70
     3
  9
$SHADEDIF
 70
    70
  9
$TILEMODE
 70
     1
  9
$MAXACTVP
 70
    64
  9
$PINSBASE
 10
0.0
 20
0.0
 30
0.0
  9
$PLIMCHECK
 70
     0
  9
$PEXTMIN
 10
1.0000000000E+20
 20
1.0000000000E+20
 30
1.0000000000E+20
  9
$PEXTMAX
 10
-1.0000000000E+20
 20
-1.0000000000E+20
 30
-1.0000000000E+20
  9
$PLIMMIN
 10
0.0
 20
0.0
  9
$PLIMMAX
 10
420.0
 20
297.0
  9
$UNITMODE
 70
     0
  9
$VISRETAIN
 70
     1
  9
$PLINEGEN
 70
     0
  9
$PSLTSCALE
 70
     1
  9
$TREEDEPTH
 70
  3020
  9
$CMLSTYLE
  2
Standard
  9
$CMLJUST
 70
     0
  9
$CMLSCALE
 40
20.0
  9
$PROXYGRAPHICS
 70
     1
  9
$MEASUREMENT
 70
     1
  9
$CELWEIGHT
370
    -1
  9
$ENDCAPS
280
     0
  9
$JOINSTYLE
280
     0
  9
$LWDISPLAY
290
     1
  9
$INSUNITS
 70
     4
  9
$HYPERLINKBASE
  1

  9
$STYLESHEET
  1

  9
$XEDIT
290
     1
  9
$CEPSNTYPE
380
     0
  9
$PSTYLEMODE
290
     1
  9
$FINGERPRINTGUID
  2
{94ad5a8d-387c-47f9-904f-08a0e7c7df5a}
  9
$VERSIONGUID
  2
{FAEB1C32-E019-11D5-929B-00C0DF256EC4}
  9
$EXTNAMES
290
     1
  9
$PSVPSCALE
 40
0.0
  9
$OLESTARTUP
290
     0
  0
ENDSEC
  0
SECTION
  2
CLASSES
  0
CLASS
  1
ACDBDICTIONARYWDFLT
  2
AcDbDictionaryWithDefault
  3
ObjectDBX Classes
 90
        0
280
     0
281
     0
  0
CLASS
  1
VISUALSTYLE
  2
AcDbVisualStyle
  3
ObjectDBX Classes
 90
     4095
280
     0
281
     0
  0
CLASS
  1
MATERIAL
  2
AcDbMaterial
  3
ObjectDBX Classes
 90
     1153
280
     0
281
     0
  0
CLASS
  1
SCALE
  2
AcDbScale
  3
ObjectDBX Classes
 90
     1153
280
     0
281
     0
  0
CLASS
  1
TABLESTYLE
  2
AcDbTableStyle
  3
ObjectDBX Classes
 90
     4095
280
     0
281
     0
  0
CLASS
  1
MLEADERSTYLE
  2
AcDbMLeaderStyle
  3
ACDB_MLEADERSTYLE_CLASS
 90
     4095
280
     0
281
     0
  0
CLASS
  1
SUN
  2
AcDbSun
  3
SCENEOE
 90
     1153
280
     0
281
     0
  0
CLASS
  1
ACDBPLACEHOLDER
  2
AcDbPlaceHolder
  3
ObjectDBX Classes
 90
        0
280
     0
281
     0
  0
CLASS
  1
LAYOUT
  2
AcDbLayout
  3
ObjectDBX Classes
 90
        0
280
     0
281
     0
  0
ENDSEC
  0
SECTION
  2
TABLES
  0
TABLE
  2
VPORT
  5
8
330
0
100
AcDbSymbolTable
 70
     1
  0
VPORT
  5
29
330
8
100
AcDbSymbolTableRecord
100
AcDbViewportTableRecord
  2
*Active
 70
     0
 10
0.0
 20
0.0
 11
1.0
 21
1.0
 12
139.7
 22
107.95
 13
0.0
 23
0.0
 14
10.0
 24
10.0
 15
10.0
 25
10.0
 16
0.0
 26
0.0
 36
1.0
 17
0.0
 27
0.0
 37
0.0
 40
215.9
 41
1.2941176471
 42
50.0
 43
0.0
 44
0.0
 50
0.0
 51
0.0
 71
     0
 72
  2000
 73
     1
 74
     3
 75
     0
 76
     0
 77
     0
 78
     0
281
     0
 65
     1
110
0.0
120
0.0
130
0.0
111
1.0
121
0.0
131
0.0
112
0.0
122
1.0
132
0.0
 79
     0
146
0.0
  0
ENDTAB
  0
TABLE
  2
LTYPE
  5
5
330
0
100
AcDbSymbolTable
 70
     6
  0
LTYPE
  5
14
330
5
100
AcDbSymbolTableRecord
100
AcDbLinetypeTableRecord
  2
ByBlock
 70
     0
  3

 72
    65
 73
     0
 40
0.0
  0
LTYPE
  5
15
330
5
100
AcDbSymbolTableRecord
100
AcDbLinetypeTableRecord
  2
ByLayer
 70
     0
  3

 72
    65
 73
     0
 40
0.0
  0
LTYPE
  5
16
330
5
100
AcDbSymbolTableRecord
100
AcDbLinetypeTableRecord
  2
Continuous
 70
     0
  3
Solid line
 72
    65
 73
     0
 40
0.0
  0
LTYPE
  5
6E
330
5
100
AcDbSymbolTableRecord
100
AcDbLinetypeTableRecord
  2
HIDDEN
 70
     0
  3
Hidden __ __ __ __ __ __ __ __ __ __ __ __ __ __
 72
    65
 73
     2
 40
1.905
 49
1.27
 74
     0
 49
-0.635
 74
     0
  0
LTYPE
  5
6F
330
5
100
AcDbSymbolTableRecord
100
AcDbLinetypeTableRecord
  2
PHANTOM
 70
     0
  3
Phantom ______  __  __  ______  __  __  ______
 72
    65
 73
     6
 40
12.7
 49
6.35
 74
     0
 49
-1.27
 74
     0
 49
1.27
 74
     0
 49
-1.27
 74
     0
 49
1.27
 74
     0
 49
-1.27
 74
     0
  0
LTYPE
  5
70
330
5
100
AcDbSymbolTableRecord
100
AcDbLinetypeTableRecord
  2
CENTER
 70
     0
  3
Center ____ _ ____ _ ____ _ ____ _ ____ _ ____
 72
    65
 73
     4
 40
10.16
 49
6.35
 74
     0
 49
-1.27
 74
     0
 49
1.27
 74
     0
 49
-1.27
 74
     0
  0
LTYPE
  5
71
330
5
100
AcDbSymbolTableRecord
100
AcDbLinetypeTableRecord
  2
CENTERX2
 70
     0
  3
Center (2x) ________  __  ________  __  _____
 72
    65
 73
     4
 40
20.32
 49
12.7
 74
     0
 49
-2.54
 74
     0
 49
2.54
 74
     0
 49
-2.54
 74
     0
  0
LTYPE
  5
72
330
5
100
AcDbSymbolTableRecord
100
AcDbLinetypeTableRecord
  2
DOT2
 70
     0
  3
Dot (.5x) ........................................
 72
    65
 73
     2
 40
0.635
 49
0.0
 74
     0
 49
-0.635
 74
     0
  0
ENDTAB
  0
TABLE
  2
LAYER
  5
2
330
0
100
AcDbSymbolTable
 70
    17
  0
LAYER
  5
10
330
2
100
AcDbSymbolTableRecord
100
AcDbLayerTableRecord
  2
0
 70
     0
 62
     7
  6
Continuous
370
    -3
390
F
  0
LAYER
  5
73
330
2
100
AcDbSymbolTableRecord
100
AcDbLayerTableRecord
  2
FORMAT
 70
     0
 62
     7
  6
Continuous
370
    -3
390
F
  0
LAYER
  5
74
330
2
100
AcDbSymbolTableRecord
100
AcDbLayerTableRecord
  2
YARDIMCI_GEOMETRI
 70
     0
 62
    -6
  6
Continuous
290
     0
370
    -3
390
F
  0
LAYER
  5
75
330
2
100
AcDbSymbolTableRecord
100
AcDbLayerTableRecord
  2
SAYFA_CERCEVESI
 70
     0
 62
     7
  6
Continuous
370
    25
390
F
  0
LAYER
  5
76
330
2
100
AcDbSymbolTableRecord
100
AcDbLayerTableRecord
  2
ANTET
 70
     0
 62
     7
  6
Continuous
370
    -3
390
F
  0
LAYER
  5
77
330
2
100
AcDbSymbolTableRecord
100
AcDbLayerTableRecord
  2
OLCU
 70
     0
 62
   150
  6
Continuous
370
    -3
390
F
  0
LAYER
  5
78
330
2
100
AcDbSymbolTableRecord
100
AcDbLayerTableRecord
  2
METIN
 70
     0
 62
    96
  6
Continuous
370
    -3
390
F
  0
LAYER
  5
79
330
2
100
AcDbSymbolTableRecord
100
AcDbLayerTableRecord
  2
BALON
 70
     0
 62
     5
  6
Continuous
370
    -3
390
F
  0
LAYER
  5
7A
330
2
100
AcDbSymbolTableRecord
100
AcDbLayerTableRecord
  2
VURGU
 70
     0
 62
     7
  6
Continuous
370
    -3
390
F
  0
LAYER
  5
7B
330
2
100
AcDbSymbolTableRecord
100
AcDbLayerTableRecord
  2
SILIK
 70
     0
 62
     7
  6
Continuous
370
    -3
390
F
  0
LAYER
  5
7C
330
2
100
AcDbSymbolTableRecord
100
AcDbLayerTableRecord
  2
MODEL
 70
     0
 62
     7
  6
Continuous
370
    -3
390
F
  0
LAYER
  5
7D
330
2
100
AcDbSymbolTableRecord
100
AcDbLayerTableRecord
  2
DETAYLANDıRMA
 70
     0
 62
   190
  6
Continuous
370
    -3
390
F
  0
LAYER
  5
7E
330
2
100
AcDbSymbolTableRecord
100
AcDbLayerTableRecord
  2
TOLERANS
 70
     0
 62
   230
  6
Continuous
370
    -3
390
F
  0
LAYER
  5
7F
330
2
100
AcDbSymbolTableRecord
100
AcDbLayerTableRecord
  2
MERKEZ_CIZGILERI
 70
     0
 62
    30
  6
Continuous
370
    -3
390
F
  0
LAYER
  5
80
330
2
100
AcDbSymbolTableRecord
100
AcDbLayerTableRecord
  2
KESIT-DETAY_CIZGILERI
 70
     0
 62
     7
  6
Continuous
370
    -3
390
F
  0
LAYER
  5
81
330
2
100
AcDbSymbolTableRecord
100
AcDbLayerTableRecord
  2
\U+041E\U+0421\U+0415\U+0412\U+042B\U+0415
 70
     0
 62
     7
  6
Continuous
370
    -3
390
F
  0
LAYER
  5
82
330
2
100
AcDbSymbolTableRecord
100
AcDbLayerTableRecord
  2
\U+0412\U+041E\U+0414\U+042F\U+041D\U+042B\U+0415_\U+0417\U+041D\U+0410\U+041A\U+0418
 70
     0
 62
    11
  6
Continuous
370
    -3
390
F
  0
ENDTAB
  0
TABLE
  2
STYLE
  5
3
330
0
100
AcDbSymbolTable
 70
     1
  0
STYLE
  5
11
330
3
100
AcDbSymbolTableRecord
100
AcDbTextStyleTableRecord
  2
Standard
 70
     0
 40
0.0
 41
1.0
 50
0.0
 71
     0
 42
3.5
  3
txt
  4

  0
ENDTAB
  0
TABLE
  2
VIEW
  5
6
330
0
100
AcDbSymbolTable
 70
     0
  0
ENDTAB
  0
TABLE
  2
UCS
  5
7
330
0
100
AcDbSymbolTable
 70
     0
  0
ENDTAB
  0
TABLE
  2
APPID
  5
9
330
0
100
AcDbSymbolTable
 70
     1
  0
APPID
  5
12
330
9
100
AcDbSymbolTableRecord
100
AcDbRegAppTableRecord
  2
ACAD
 70
     0
  0
ENDTAB
  0
TABLE
  2
DIMSTYLE
  5
A
330
0
100
AcDbSymbolTable
 70
     1
100
AcDbDimStyleTable
  0
DIMSTYLE
105
27
330
A
100
AcDbSymbolTableRecord
100
AcDbDimStyleTableRecord
  2
ISO-25
 70
     0
 41
2.5
 42
0.625
 43
3.75
 44
1.25
 73
     0
 74
     0
 77
     1
 78
     8
140
2.5
141
2.5
143
0.0393700787
147
0.625
171
     3
172
     1
178
     0
271
     2
272
     2
274
     3
278
    44
283
     0
284
     8
340
11
  0
ENDTAB
  0
TABLE
  2
BLOCK_RECORD
  5
1
330
0
100
AcDbSymbolTable
 70
     2
  0
BLOCK_RECORD
  5
1F
330
1
100
AcDbSymbolTableRecord
100
AcDbBlockTableRecord
  2
*Model_Space
340
22
  0
BLOCK_RECORD
  5
1B
330
1
100
AcDbSymbolTableRecord
100
AcDbBlockTableRecord
  2
*Paper_Space
340
1E
  0
BLOCK_RECORD
  5
23
330
1
100
AcDbSymbolTableRecord
100
AcDbBlockTableRecord
  2
*Paper_Space0
340
26
  0
BLOCK_RECORD
  5
88
330
1
100
AcDbSymbolTableRecord
100
AcDbBlockTableRecord
  2
SW_CENTERMARKSYMBOL_0
340
0
102
{BLKREFS
331
93
102
}
  0
ENDTAB
  0
ENDSEC
  0
SECTION
  2
BLOCKS
  0
BLOCK
  5
20
330
1F
100
AcDbEntity
  8
0
100
AcDbBlockBegin
  2
*Model_Space
 70
     0
 10
0.0
 20
0.0
 30
0.0
  3
*Model_Space
  1

  0
ENDBLK
  5
21
330
1F
100
AcDbEntity
  8
0
100
AcDbBlockEnd
  0
BLOCK
  5
1C
330
1B
100
AcDbEntity
 67
     1
  8
0
100
AcDbBlockBegin
  2
*Paper_Space
 70
     0
 10
0.0
 20
0.0
 30
0.0
  3
*Paper_Space
  1

  0
ENDBLK
  5
1D
330
1B
100
AcDbEntity
 67
     1
  8
0
100
AcDbBlockEnd
  0
BLOCK
  5
24
330
23
100
AcDbEntity
  8
0
100
AcDbBlockBegin
  2
*Paper_Space0
 70
     0
 10
0.0
 20
0.0
 30
0.0
  3
*Paper_Space0
  1

  0
ENDBLK
  5
25
330
23
100
AcDbEntity
  8
0
100
AcDbBlockEnd
  0
BLOCK
  5
89
330
88
100
AcDbEntity
  8
0
100
AcDbBlockBegin
  2
SW_CENTERMARKSYMBOL_0
 70
     0
 10
0.0
 20
0.0
 30
0.0
  3
SW_CENTERMARKSYMBOL_0
  1

  0
LINE
  5
8B
330
88
100
AcDbEntity
  8
FORMAT
 62
     0
100
AcDbLine
 10
0.0
 20
0.0
 30
0.0
 11
0.0
 21
2.5
 31
0.0
  0
LINE
  5
8C
330
88
100
AcDbEntity
  8
FORMAT
 62
     0
100
AcDbLine
 10
0.0
 20
0.0
 30
0.0
 11
-2.5
 21
0.0
 31
0.0
  0
LINE
  5
8D
330
88
100
AcDbEntity
  8
FORMAT
 62
     0
100
AcDbLine
 10
0.0
 20
0.0
 30
0.0
 11
0.0
 21
-2.5
 31
0.0
  0
LINE
  5
8E
330
88
100
AcDbEntity
  8
FORMAT
 62
     0
100
AcDbLine
 10
0.0
 20
0.0
 30
0.0
 11
2.5
 21
0.0
 31
0.0
  0
LINE
  5
8F
330
88
100
AcDbEntity
  8
FORMAT
 62
     0
100
AcDbLine
 10
0.0
 20
5.0
 30
0.0
 11
0.0
 21
65.0
 31
0.0
  0
LINE
  5
90
330
88
100
AcDbEntity
  8
FORMAT
 62
     0
100
AcDbLine
 10
-5.0
 20
0.0
 30
0.0
 11
-65.0
 21
0.0
 31
0.0
  0
LINE
  5
91
330
88
100
AcDbEntity
  8
FORMAT
 62
     0
100
AcDbLine
 10
0.0
 20
-5.0
 30
0.0
 11
0.0
 21
-65.0
 31
0.0
  0
LINE
  5
92
330
88
100
AcDbEntity
  8
FORMAT
 62
     0
100
AcDbLine
 10
5.0
 20
0.0
 30
0.0
 11
65.0
 21
0.0
 31
0.0
  0
ENDBLK
  5
8A
330
88
100
AcDbEntity
  8
0
100
AcDbBlockEnd
  0
ENDSEC
  0
SECTION
  2
ENTITIES
  0
CIRCLE
  5
83
330
1F
100
AcDbEntity
  8
0
  6
Continuous
 62
     7
370
    25
100
AcDbCircle
 10
136.0804557792
 20
118.8813202377
 30
0.0
 40
62.50000000000001
  0
CIRCLE
  5
84
330
1F
100
AcDbEntity
  8
0
  6
Continuous
 62
     7
370
    25
100
AcDbCircle
 10
136.0804557792
 20
118.8813202377
 30
0.0
 40
55.10000000000001
  0
CIRCLE
  5
85
330
1F
100
AcDbEntity
  8
0
  6
Continuous
 62
     7
370
    25
100
AcDbCircle
 10
136.0804557792
 20
118.8813202377
 30
0.0
 40
55.05067723957465
  0
CIRCLE
  5
86
330
1F
100
AcDbEntity
  8
0
  6
Continuous
 62
     7
370
    25
100
AcDbCircle
 10
136.0804557792
 20
118.8813202377
 30
0.0
 40
48.44932276042539
  0
CIRCLE
  5
87
330
1F
100
AcDbEntity
  8
0
  6
Continuous
 62
     7
370
    25
100
AcDbCircle
 10
136.0804557792
 20
118.8813202377
 30
0.0
 40
48.40000000000001
  0
INSERT
  5
93
330
1F
100
AcDbEntity
  8
FORMAT
 62
     7
100
AcDbBlockReference
  2
SW_CENTERMARKSYMBOL_0
 10
136.0804557792
 20
118.8813202377
 30
0.0
  0
LINE
  5
94
330
1F
100
AcDbEntity
  8
0
  6
Continuous
 62
     7
370
    25
100
AcDbLine
 10
-123.7025380731
 20
181.3813202377
 30
0.0
 11
-210.561727047
 21
181.3813202377
 31
0.0
  0
LINE
  5
95
330
1F
100
AcDbEntity
  8
0
  6
Continuous
 62
     7
370
    25
100
AcDbLine
 10
-210.561727047
 20
56.3813202377
 30
0.0
 11
-123.7025380731
 21
56.3813202377
 31
0.0
  0
ARC
  5
96
330
1F
100
AcDbEntity
  8
0
  6
Continuous
 62
     7
370
    25
100
AcDbCircle
 10
-123.7025376669
 20
179.3813202377
 30
0.0
 40
2.0
100
AcDbArc
 50
81.9455855536
 51
90.0
  0
ARC
  5
97
330
1F
100
AcDbEntity
  8
0
  6
Continuous
 62
     7
370
    25
100
AcDbCircle
 10
-123.7025376669
 20
58.3813202377
 30
0.0
 40
1.999999999999993
100
AcDbArc
 50
270.0
 51
278.0544144464
  0
LINE
  5
98
330
1F
100
AcDbEntity
  8
0
  6
Continuous
 62
     7
370
    25
100
AcDbLine
 10
-123.422310561
 20
56.4010493751
 30
0.0
 11
-70.7011491657
 21
63.8615913983
 31
0.0
  0
LINE
  5
99
330
1F
100
AcDbEntity
  8
0
  6
Continuous
 62
     7
370
    25
100
AcDbLine
 10
-70.7011491657
 20
173.9010490771
 30
0.0
 11
-123.422310561
 21
181.3615911003
 31
0.0
  0
ARC
  5
9A
330
1F
100
AcDbEntity
  8
0
  6
Continuous
 62
     7
370
    25
100
AcDbCircle
 10
-70.4209216453
 20
175.8813202377
 30
0.0
 40
2.000000000000028
100
AcDbArc
 50
261.9455855536
 51
270.0
  0
ARC
  5
9B
330
1F
100
AcDbEntity
  8
0
  6
Continuous
 62
     7
370
    25
100
AcDbCircle
 10
-70.4209216453
 20
61.8813202377
 30
0.0
 40
2.000000000000014
100
AcDbArc
 50
90.0
 51
98.0544144464
  0
LINE
  5
9C
330
1F
100
AcDbEntity
  8
0
  6
Continuous
 62
     7
370
    25
100
AcDbLine
 10
11.4382683634
 20
173.8813199397
 30
0.0
 11
-70.4209216535
 21
173.8813199397
 31
0.0
  0
LINE
  5
9D
330
1F
100
AcDbEntity
  8
0
  6
Continuous
 62
     7
370
    25
100
AcDbLine
 10
-70.4209216535
 20
63.8813205357
 30
0.0
 11
11.4382683634
 21
63.8813205357
 31
0.0
  0
LINE
  5
9E
330
1F
100
AcDbEntity
  8
0
  6
Continuous
 62
     7
370
    25
100
AcDbLine
 10
-210.561727047
 20
181.3813202377
 30
0.0
 11
-210.561727047
 21
56.3813202377
 31
0.0
  0
LINE
  5
9F
330
1F
100
AcDbEntity
  8
0
  6
Continuous
 62
     7
370
    25
100
AcDbLine
 10
11.4382683634
 20
173.8813199397
 30
0.0
 11
11.4382683634
 21
63.8813205357
 31
0.0
  0
LINE
  5
A0
330
1F
100
AcDbEntity
  8
0
  6
Continuous
 62
     1
370
    25
100
AcDbLine
 10
-123.7025380731
 20
181.3813202377
 30
0.0
 11
-123.7025380731
 21
56.3813202377
 31
0.0
  0
LINE
  5
A1
330
1F
100
AcDbEntity
  8
0
  6
Continuous
 62
     1
370
    25
100
AcDbLine
 10
-123.422310561
 20
181.3615911003
 30
0.0
 11
-123.422310561
 21
56.4010493751
 31
0.0
  0
LINE
  5
A2
330
1F
100
AcDbEntity
  8
0
  6
Continuous
 62
     1
370
    25
100
AcDbLine
 10
-70.7011491657
 20
173.9010490771
 30
0.0
 11
-70.7011491657
 21
63.8615913983
 31
0.0
  0
LINE
  5
A3
330
1F
100
AcDbEntity
  8
0
  6
Continuous
 62
     1
370
    25
100
AcDbLine
 10
-70.4209216535
 20
173.8813199397
 30
0.0
 11
-70.4209216535
 21
63.8813205357
 31
0.0
  0
LINE
  5
A4
330
1F
100
AcDbEntity
  8
0
  6
Continuous
 62
     7
370
    25
100
AcDbLine
 10
198.5804557792
 20
340.6719149362
 30
0.0
 11
198.5804557792
 21
427.5311039101
 31
0.0
  0
LINE
  5
A5
330
1F
100
AcDbEntity
  8
0
  6
Continuous
 62
     7
370
    25
100
AcDbLine
 10
73.5804557792
 20
427.5311039101
 30
0.0
 11
73.5804557792
 21
340.6719149362
 31
0.0
  0
ARC
  5
A6
330
1F
100
AcDbEntity
  8
0
  6
Continuous
 62
     7
370
    25
100
AcDbCircle
 10
196.5804557792
 20
340.6719145299
 30
0.0
 40
2.0
100
AcDbArc
 50
351.9455855536
 51
0.0
  0
ARC
  5
A7
330
1F
100
AcDbEntity
  8
0
  6
Continuous
 62
     7
370
    25
100
AcDbCircle
 10
75.5804557792
 20
340.6719145299
 30
0.0
 40
2.0
100
AcDbArc
 50
180.0
 51
188.0544144464
  0
LINE
  5
A8
330
1F
100
AcDbEntity
  8
0
  6
Continuous
 62
     7
370
    25
100
AcDbLine
 10
73.6001849166
 20
340.391687424
 30
0.0
 11
81.0607269398
 21
287.6705260287
 31
0.0
  0
LINE
  5
A9
330
1F
100
AcDbEntity
  8
0
  6
Continuous
 62
     7
370
    25
100
AcDbLine
 10
191.1001846186
 20
287.6705260287
 30
0.0
 11
198.5607266418
 21
340.391687424
 31
0.0
  0
ARC
  5
AA
330
1F
100
AcDbEntity
  8
0
  6
Continuous
 62
     7
370
    25
100
AcDbCircle
 10
193.0804557792
 20
287.3902985084
 30
0.0
 40
2.000000000000028
100
AcDbArc
 50
171.9455855536
 51
180.0
  0
ARC
  5
AB
330
1F
100
AcDbEntity
  8
0
  6
Continuous
 62
     7
370
    25
100
AcDbCircle
 10
79.0804557792
 20
287.3902985084
 30
0.0
 40
2.000000000000014
100
AcDbArc
 50
0.0
 51
8.0544144464
  0
LINE
  5
AC
330
1F
100
AcDbEntity
  8
0
  6
Continuous
 62
     7
370
    25
100
AcDbLine
 10
191.0804554812
 20
205.5311084996
 30
0.0
 11
191.0804554812
 21
287.3902985166
 31
0.0
  0
LINE
  5
AD
330
1F
100
AcDbEntity
  8
0
  6
Continuous
 62
     7
370
    25
100
AcDbLine
 10
81.0804560772
 20
287.3902985166
 30
0.0
 11
81.0804560772
 21
205.5311084996
 31
0.0
  0
LINE
  5
AE
330
1F
100
AcDbEntity
  8
0
  6
Continuous
 62
     7
370
    25
100
AcDbLine
 10
198.5804557792
 20
427.5311039101
 30
0.0
 11
73.5804557792
 21
427.5311039101
 31
0.0
  0
LINE
  5
AF
330
1F
100
AcDbEntity
  8
0
  6
Continuous
 62
     7
370
    25
100
AcDbLine
 10
191.0804554812
 20
205.5311084996
 30
0.0
 11
81.0804560772
 21
205.5311084996
 31
0.0
  0
LINE
  5
B0
330
1F
100
AcDbEntity
  8
0
  6
Continuous
 62
     1
370
    25
100
AcDbLine
 10
198.5804557792
 20
340.6719149362
 30
0.0
 11
73.5804557792
 21
340.6719149362
 31
0.0
  0
LINE
  5
B1
330
1F
100
AcDbEntity
  8
0
  6
Continuous
 62
     1
370
    25
100
AcDbLine
 10
198.5607266418
 20
340.391687424
 30
0.0
 11
73.6001849166
 21
340.391687424
 31
0.0
  0
LINE
  5
B2
330
1F
100
AcDbEntity
  8
0
  6
Continuous
 62
     1
370
    25
100
AcDbLine
 10
191.1001846186
 20
287.6705260287
 30
0.0
 11
81.0607269398
 21
287.6705260287
 31
0.0
  0
LINE
  5
B3
330
1F
100
AcDbEntity
  8
0
  6
Continuous
 62
     1
370
    25
100
AcDbLine
 10
191.0804554812
 20
287.3902985166
 30
0.0
 11
81.0804560772
 21
287.3902985166
 31
0.0
  0
LINE
  5
B4
330
1F
100
AcDbEntity
  8
0
  6
Continuous
 62
     7
370
    25
100
AcDbLine
 10
390.896626039
 20
56.3813202377
 30
0.0
 11
477.7558150129
 21
56.3813202377
 31
0.0
  0
LINE
  5
B5
330
1F
100
AcDbEntity
  8
0
  6
Continuous
 62
     7
370
    25
100
AcDbLine
 10
477.7558150129
 20
181.3813202377
 30
0.0
 11
390.896626039
 21
181.3813202377
 31
0.0
  0
ARC
  5
B6
330
1F
100
AcDbEntity
  8
0
  6
Continuous
 62
     7
370
    25
100
AcDbCircle
 10
390.8966256328
 20
58.3813202377
 30
0.0
 40
1.999999999999993
100
AcDbArc
 50
261.9455855536
 51
270.0
  0
ARC
  5
B7
330
1F
100
AcDbEntity
  8
0
  6
Continuous
 62
     7
370
    25
100
AcDbCircle
 10
390.8966256328
 20
179.3813202377
 30
0.0
 40
2.0
100
AcDbArc
 50
90.0
 51
98.0544144464
  0
LINE
  5
B8
330
1F
100
AcDbEntity
  8
0
  6
Continuous
 62
     7
370
    25
100
AcDbLine
 10
390.6163985269
 20
181.3615911003
 30
0.0
 11
337.8952371316
 21
173.9010490771
 31
0.0
  0
LINE
  5
B9
330
1F
100
AcDbEntity
  8
0
  6
Continuous
 62
     7
370
    25
100
AcDbLine
 10
337.8952371316
 20
63.8615913983
 30
0.0
 11
390.6163985269
 21
56.4010493751
 31
0.0
  0
ARC
  5
BA
330
1F
100
AcDbEntity
  8
0
  6
Continuous
 62
     7
370
    25
100
AcDbCircle
 10
337.6150096113
 20
61.8813202377
 30
0.0
 40
2.000000000000014
100
AcDbArc
 50
81.9455855536
 51
90.0
  0
ARC
  5
BB
330
1F
100
AcDbEntity
  8
0
  6
Continuous
 62
     7
370
    25
100
AcDbCircle
 10
337.6150096113
 20
175.8813202377
 30
0.0
 40
2.000000000000028
100
AcDbArc
 50
270.0
 51
278.0544144464
  0
LINE
  5
BC
330
1F
100
AcDbEntity
  8
0
  6
Continuous
 62
     7
370
    25
100
AcDbLine
 10
255.7558196025
 20
63.8813205357
 30
0.0
 11
337.6150096195
 21
63.8813205357
 31
0.0
  0
LINE
  5
BD
330
1F
100
AcDbEntity
  8
0
  6
Continuous
 62
     7
370
    25
100
AcDbLine
 10
337.6150096195
 20
173.8813199397
 30
0.0
 11
255.7558196025
 21
173.8813199397
 31
0.0
  0
LINE
  5
BE
330
1F
100
AcDbEntity
  8
0
  6
Continuous
 62
     7
370
    25
100
AcDbLine
 10
477.7558150129
 20
118.8813202377
 30
0.0
 11
477.7558150129
 21
181.3813202377
 31
0.0
  0
LINE
  5
BF
330
1F
100
AcDbEntity
  8
0
  6
Continuous
 62
     7
370
    25
100
AcDbLine
 10
477.7558150129
 20
56.3813202377
 30
0.0
 11
477.7558150129
 21
118.8813202377
 31
0.0
  0
LINE
  5
C0
330
1F
100
AcDbEntity
  8
0
  6
Continuous
 62
     7
370
    25
100
AcDbLine
 10
255.7558196025
 20
118.8813202377
 30
0.0
 11
255.7558196025
 21
173.8813199397
 31
0.0
  0
LINE
  5
C1
330
1F
100
AcDbEntity
  8
0
  6
Continuous
 62
     7
370
    25
100
AcDbLine
 10
255.7558196025
 20
63.8813205357
 30
0.0
 11
255.7558196025
 21
118.8813202377
 31
0.0
  0
LINE
  5
C2
330
1F
100
AcDbEntity
  8
0
  6
Continuous
 62
     1
370
    25
100
AcDbLine
 10
390.896626039
 20
118.8813202377
 30
0.0
 11
390.896626039
 21
181.3813202377
 31
0.0
  0
LINE
  5
C3
330
1F
100
AcDbEntity
  8
0
  6
Continuous
 62
     1
370
    25
100
AcDbLine
 10
390.896626039
 20
56.3813202377
 30
0.0
 11
390.896626039
 21
118.8813202377
 31
0.0
  0
LINE
  5
C4
330
1F
100
AcDbEntity
  8
0
  6
Continuous
 62
     1
370
    25
100
AcDbLine
 10
390.6163985269
 20
118.8813202377
 30
0.0
 11
390.6163985269
 21
181.3615911003
 31
0.0
  0
LINE
  5
C5
330
1F
100
AcDbEntity
  8
0
  6
Continuous
 62
     1
370
    25
100
AcDbLine
 10
390.6163985269
 20
56.4010493751
 30
0.0
 11
390.6163985269
 21
118.8813202377
 31
0.0
  0
LINE
  5
C6
330
1F
100
AcDbEntity
  8
0
  6
Continuous
 62
     1
370
    25
100
AcDbLine
 10
337.8952371316
 20
118.8813202377
 30
0.0
 11
337.8952371316
 21
173.9010490771
 31
0.0
  0
LINE
  5
C7
330
1F
100
AcDbEntity
  8
0
  6
Continuous
 62
     1
370
    25
100
AcDbLine
 10
337.8952371316
 20
63.8615913983
 30
0.0
 11
337.8952371316
 21
118.8813202377
 31
0.0
  0
LINE
  5
C8
330
1F
100
AcDbEntity
  8
0
  6
Continuous
 62
     1
370
    25
100
AcDbLine
 10
337.6150096195
 20
118.8813202377
 30
0.0
 11
337.6150096195
 21
173.8813199397
 31
0.0
  0
LINE
  5
C9
330
1F
100
AcDbEntity
  8
0
  6
Continuous
 62
     1
370
    25
100
AcDbLine
 10
337.6150096195
 20
63.8813205357
 30
0.0
 11
337.6150096195
 21
118.8813202377
 31
0.0
  0
LINE
  5
CA
330
1F
100
AcDbEntity
  8
0
  6
Continuous
 62
     7
370
    25
100
AcDbLine
 10
73.5804557792
 20
-123.1897032995
 30
0.0
 11
73.5804557792
 21
-210.0488922734
 31
0.0
  0
LINE
  5
CB
330
1F
100
AcDbEntity
  8
0
  6
Continuous
 62
     7
370
    25
100
AcDbLine
 10
198.5804557792
 20
-210.0488922734
 30
0.0
 11
198.5804557792
 21
-123.1897032995
 31
0.0
  0
ARC
  5
CC
330
1F
100
AcDbEntity
  8
0
  6
Continuous
 62
     7
370
    25
100
AcDbCircle
 10
75.5804557792
 20
-123.1897028932
 30
0.0
 40
2.0
100
AcDbArc
 50
171.9455855536
 51
180.0
  0
ARC
  5
CD
330
1F
100
AcDbEntity
  8
0
  6
Continuous
 62
     7
370
    25
100
AcDbCircle
 10
196.5804557792
 20
-123.1897028932
 30
0.0
 40
2.0
100
AcDbArc
 50
0.0
 51
8.0544144464
  0
LINE
  5
CE
330
1F
100
AcDbEntity
  8
0
  6
Continuous
 62
     7
370
    25
100
AcDbLine
 10
198.5607266418
 20
-122.9094757873
 30
0.0
 11
191.1001846186
 21
-70.188314392
 31
0.0
  0
LINE
  5
CF
330
1F
100
AcDbEntity
  8
0
  6
Continuous
 62
     7
370
    25
100
AcDbLine
 10
81.0607269398
 20
-70.188314392
 30
0.0
 11
73.6001849166
 21
-122.9094757873
 31
0.0
  0
ARC
  5
D0
330
1F
100
AcDbEntity
  8
0
  6
Continuous
 62
     7
370
    25
100
AcDbCircle
 10
79.0804557792
 20
-69.9080868717
 30
0.0
 40
2.000000000000014
100
AcDbArc
 50
351.9455855536
 51
0.0
  0
ARC
  5
D1
330
1F
100
AcDbEntity
  8
0
  6
Continuous
 62
     7
370
    25
100
AcDbCircle
 10
193.0804557792
 20
-69.9080868717
 30
0.0
 40
2.000000000000028
100
AcDbArc
 50
180.0
 51
188.0544144464
  0
LINE
  5
D2
330
1F
100
AcDbEntity
  8
0
  6
Continuous
 62
     7
370
    25
100
AcDbLine
 10
81.0804560772
 20
11.9511031371
 30
0.0
 11
81.0804560772
 21
-69.9080868799
 31
0.0
  0
LINE
  5
D3
330
1F
100
AcDbEntity
  8
0
  6
Continuous
 62
     7
370
    25
100
AcDbLine
 10
191.0804554812
 20
-69.9080868799
 30
0.0
 11
191.0804554812
 21
11.9511031371
 31
0.0
  0
LINE
  5
D4
330
1F
100
AcDbEntity
  8
0
  6
Continuous
 62
     7
370
    25
100
AcDbLine
 10
73.5804557792
 20
-210.0488922734
 30
0.0
 11
198.5804557792
 21
-210.0488922734
 31
0.0
  0
LINE
  5
D5
330
1F
100
AcDbEntity
  8
0
  6
Continuous
 62
     7
370
    25
100
AcDbLine
 10
81.0804560772
 20
11.9511031371
 30
0.0
 11
191.0804554812
 21
11.9511031371
 31
0.0
  0
LINE
  5
D6
330
1F
100
AcDbEntity
  8
0
  6
Continuous
 62
     1
370
    25
100
AcDbLine
 10
73.5804557792
 20
-123.1897032995
 30
0.0
 11
198.5804557792
 21
-123.1897032995
 31
0.0
  0
LINE
  5
D7
330
1F
100
AcDbEntity
  8
0
  6
Continuous
 62
     1
370
    25
100
AcDbLine
 10
73.6001849166
 20
-122.9094757873
 30
0.0
 11
198.5607266418
 21
-122.9094757873
 31
0.0
  0
LINE
  5
D8
330
1F
100
AcDbEntity
  8
0
  6
Continuous
 62
     1
370
    25
100
AcDbLine
 10
81.0607269398
 20
-70.188314392
 30
0.0
 11
191.1001846186
 21
-70.188314392
 31
0.0
  0
LINE
  5
D9
330
1F
100
AcDbEntity
  8
0
  6
Continuous
 62
     1
370
    25
100
AcDbLine
 10
81.0804560772
 20
-69.9080868799
 30
0.0
 11
191.0804554812
 21
-69.9080868799
 31
0.0
  0
LINE
  5
DA
330
1F
100
AcDbEntity
  8
0
  6
Continuous
 62
     7
370
    25
100
AcDbLine
 10
379.2032493391
 20
-32.8022584833
 30
0.0
 11
317.7845278073
 21
2.654014749
 31
0.0
  0
LINE
  5
DB
330
1F
100
AcDbEntity
  8
0
  6
Continuous
 62
     7
370
    25
100
AcDbLine
 10
255.2896075722
 20
-105.6020913752
 30
0.0
 11
316.708329104
 21
-141.0583646075
 31
0.0
  0
LINE
  5
DC
330
1F
100
AcDbEntity
  8
0
  6
Continuous
 62
     7
370
    25
100
AcDbLine
 10
320.1996133497
 20
-142.6889216772
 30
0.0
 11
360.8170264852
 21
-157.5656412219
 31
0.0
  0
LINE
  5
DD
330
1F
100
AcDbEntity
  8
0
  6
Continuous
 62
     7
370
    25
100
AcDbLine
 10
415.5561284383
 20
-62.7444634238
 30
0.0
 11
382.3612020625
 21
-35.0102235208
 31
0.0
  0
LINE
  5
DE
330
1F
100
AcDbEntity
  8
0
  6
Continuous
 62
     7
370
    25
100
AcDbLine
 10
471.0125355088
 20
-94.4626477847
 30
0.0
 11
414.4093232271
 21
-61.7863088699
 31
0.0
  0
LINE
  5
DF
330
1F
100
AcDbEntity
  8
0
  6
Continuous
 62
     7
370
    25
100
AcDbLine
 10
359.413791945
 20
-157.0516870043
 30
0.0
 11
416.0170042268
 21
-189.7280259191
 31
0.0
  0
LWPOLYLINE
  5
E0
330
1F
100
AcDbEntity
  8
0
  6
Continuous
 62
     7
370
    25
100
AcDbPolyline
 90
      113
 70
   128
 43
0.0
 10
242.3428938656
 20
-76.9867918075
 10
242.4124203605
 20
-74.0851669982
 10
242.6207785745
 20
-71.1123994636
 10
242.9673125971
 20
-68.0778435962
 10
243.4509345129
 20
-64.9910446242
 10
244.0701217669
 20
-61.8617165576
 10
244.8229224332
 20
-58.6997064474
 10
245.7069762883
 20
-55.5149586451
 10
246.7194937377
 20
-52.3174988319
 10
247.8572926943
 20
-49.1173830704
 10
249.116790676
 20
-45.9246856369
 10
250.4940285131
 20
-42.7494473119
 10
251.9846703487
 20
-39.60165865
 10
253.5840273459
 20
-36.4912265217
 10
255.2870682245
 20
-33.4279330496
 10
257.0884324324
 20
-30.4214188793
 10
258.9824512184
 20
-27.481146679
 10
260.963168706
 20
-24.6163646395
 10
263.0243497957
 20
-21.836086703
 10
265.1595104583
 20
-19.1490629075
 10
267.361934857
 20
-16.563742126
 10
269.6246898352
 20
-14.0882637027
 10
271.9406578438
 20
-11.730411068
 10
274.3025514292
 20
-9.4976124999
 10
276.7029389169
 20
-7.3968837121
 10
279.1342687767
 20
-5.4348381219
 10
281.5888900387
 20
-3.6176507306
 10
284.05908061
 20
-1.9510356923
 10
286.5370676897
 20
-0.4402375702
 10
289.0150547694
 20
0.9099872914
 10
291.4852453407
 20
2.0953935796
 10
293.9398666027
 20
3.1122515731
 10
296.3711964626
 20
3.9573596872
 10
298.7715839502
 20
4.6280593011
 10
301.1334775357
 20
5.1222450213
 10
303.4494455442
 20
5.4383521324
 10
305.7122005224
 20
5.5753949979
 10
307.9146249211
 20
5.5329393007
 10
310.0497855838
 20
5.3111195329
 10
312.1109666735
 20
4.9106306273
 10
314.091684161
 20
4.3327363213
 10
315.985702947
 20
3.5792516642
 10
317.7870671549
 20
2.6525483382
 10
319.4901080336
 20
1.555544011
 10
321.0894650307
 20
0.2916901662
 10
322.5801068663
 20
-1.1350400662
 10
323.9573447035
 20
-2.7201534312
 10
325.2168426851
 20
-4.4586654483
 10
326.3546416417
 20
-6.3451064968
 10
327.3671590911
 20
-8.3735385464
 10
328.2512129462
 20
-10.5375794939
 10
329.0040136125
 20
-12.8304244556
 10
329.6232008665
 20
-15.2448541357
 10
330.1068227823
 20
-17.7732751292
 10
330.4533568049
 20
-20.4077313304
 10
330.6617150189
 20
-23.1399335917
 10
330.7312415139
 20
-25.9612848186
 10
330.6617150189
 20
-28.862909628
 10
330.4533568049
 20
-31.8356771626
 10
330.1068227823
 20
-34.8702330299
 10
329.6232008665
 20
-37.957032002
 10
329.0040136125
 20
-41.0863600685
 10
328.2512129462
 20
-44.2483701788
 10
327.3671590911
 20
-47.4331179811
 10
326.3546416417
 20
-50.6305777943
 10
325.2168426851
 20
-53.8306935557
 10
323.9573447035
 20
-57.0233909892
 10
322.5801068663
 20
-60.1986293143
 10
321.0894650307
 20
-63.3464179762
 10
319.4901080336
 20
-66.4568501045
 10
317.7870671549
 20
-69.5201435766
 10
315.985702947
 20
-72.5266577469
 10
314.091684161
 20
-75.4669299472
 10
312.1109666735
 20
-78.3317119866
 10
310.0497855838
 20
-81.1119899231
 10
307.9146249211
 20
-83.7990137187
 10
305.7122005224
 20
-86.3843345002
 10
303.4494455442
 20
-88.8598129235
 10
301.1334775357
 20
-91.2176655582
 10
298.7715839502
 20
-93.4504641263
 10
296.3711964626
 20
-95.5511929141
 10
293.9398666027
 20
-97.5132385043
 10
291.4852453407
 20
-99.3304258955
 10
289.0150547694
 20
-100.9970409339
 10
286.5370676897
 20
-102.5078390559
 10
284.05908061
 20
-103.8580639176
 10
281.5888900387
 20
-105.0434702058
 10
279.1342687767
 20
-106.0603281993
 10
276.7029389169
 20
-106.9054363134
 10
274.3025514292
 20
-107.5761359272
 10
271.9406578438
 20
-108.0703216475
 10
269.6246898352
 20
-108.3864287586
 10
267.361934857
 20
-108.523471624
 10
265.1595104583
 20
-108.4810159268
 10
263.0243497957
 20
-108.2591961591
 10
260.963168706
 20
-107.8587072535
 10
258.9824512184
 20
-107.2808129474
 10
257.0884324324
 20
-106.5273282903
 10
255.2870682245
 20
-105.6006249644
 10
253.5840273459
 20
-104.5036206372
 10
251.9846703487
 20
-103.2397667923
 10
250.4940285131
 20
-101.81303656
 10
249.116790676
 20
-100.227923195
 10
247.8572926943
 20
-98.4894111779
 10
246.7194937377
 20
-96.6029701293
 10
245.7069762883
 20
-94.5745380797
 10
244.8229224332
 20
-92.4104971323
 10
244.0701217669
 20
-90.1176521706
 10
243.4509345129
 20
-87.7032224905
 10
242.9673125971
 20
-85.174801497
 10
242.6207785745
 20
-82.5403452958
 10
242.4124203605
 20
-79.8081430345
 10
242.3428938656
 20
-76.9867918075
  0
LWPOLYLINE
  5
E1
330
1F
100
AcDbEntity
  8
0
  6
Continuous
 62
     7
370
    25
100
AcDbPolyline
 90
      106
 70
   128
 43
0.0
 10
247.5754830601
 20
-73.9660823631
 10
247.6452202893
 20
-71.2351514544
 10
247.8541790959
 20
-68.4334812825
 10
248.2016140074
 20
-65.5711000017
 10
248.6862764235
 20
-62.6582570136
 10
249.3064383234
 20
-59.7053754409
 10
250.0598738266
 20
-56.723029311
 10
250.9438908032
 20
-53.7218922285
 10
251.9553203371
 20
-50.7127077158
 10
253.0905430675
 20
-47.7062496716
 10
254.3454970921
 20
-44.7132797854
 10
255.715688503
 20
-41.744509516
 10
257.1962098266
 20
-38.810571195
 10
258.781766365
 20
-35.9219632762
 10
260.4666788305
 20
-33.0890275221
 10
262.2449175894
 20
-30.3219064209
 10
264.1101158336
 20
-27.630502123
 10
266.0555959216
 20
-25.0244551503
 10
268.0743944039
 20
-22.513087364
 10
270.159284413
 20
-20.1053951225
 10
272.3028033225
 20
-17.8099907282
 10
274.4972764548
 20
-15.6350978671
 10
276.734848691
 20
-13.5884999004
 10
279.0075108127
 20
-11.6775216155
 10
281.3071271612
 20
-9.9090041337
 10
283.6254649422
 20
-8.289275825
 10
285.9542255071
 20
-6.8241403338
 10
288.2850725057
 20
-5.5188420756
 10
290.6096620143
 20
-4.3780488443
 10
292.9196731585
 20
-3.4058463015
 10
295.2068357718
 20
-2.6057159258
 10
297.462963158
 20
-1.980522183
 10
299.6799776103
 20
-1.5325038786
 10
301.8499449844
 20
-1.2632602817
 10
303.9650964307
 20
-1.1737598736
 10
306.0178600045
 20
-1.2643220985
 10
308.0008863491
 20
-1.5346207886
 10
309.9070789889
 20
-1.9836910113
 10
311.7296114514
 20
-2.6099222259
 10
313.4619628291
 20
-3.4110742575
 10
315.0979296325
 20
-4.3842795787
 10
316.631656084
 20
-5.526056241
 10
318.0576499223
 20
-6.8323139597
 10
319.3708113788
 20
-8.2983738885
 10
320.5664331774
 20
-9.9189959963
 10
321.6402426812
 20
-11.6883699459
 10
322.588388722
 20
-13.6001698454
 10
323.4074811127
 20
-15.6475466479
 10
324.0945880131
 20
-17.823173779
 10
324.6472464667
 20
-20.1192623465
 10
325.0634834743
 20
-22.5275915614
 10
325.3418028226
 20
-25.0395437179
 10
325.4812140608
 20
-27.6461224471
 10
325.4812140608
 20
-30.3379998638
 10
325.3418028226
 20
-33.1055393824
 10
325.0634834743
 20
-35.9388322185
 10
324.6472464667
 20
-38.827738453
 10
324.0945880131
 20
-41.761912889
 10
323.4074811127
 20
-44.730856761
 10
322.588388722
 20
-47.723937508
 10
321.6402426812
 20
-50.7304435247
 10
320.5664331774
 20
-53.7396115376
 10
319.3708113788
 20
-56.7406691907
 10
318.0576499223
 20
-59.7228730651
 10
316.631656084
 20
-62.6755482246
 10
315.0979296325
 20
-65.5881277552
 10
313.4619628291
 20
-68.4501801424
 10
311.7296114514
 20
-71.2514625006
 10
309.9070789889
 20
-73.9819449063
 10
308.0008863491
 20
-76.6318583045
 10
306.0178600045
 20
-79.1917104777
 10
303.9650964307
 20
-81.6523430765
 10
301.8499449844
 20
-84.0049445467
 10
299.6799776103
 20
-86.2410919512
 10
297.462963158
 20
-88.3527840483
 10
295.2068357718
 20
-90.3324595395
 10
292.9196731585
 20
-92.1730309082
 10
290.6096620143
 20
-93.8679104621
 10
288.2850725057
 20
-95.4110311487
 10
285.9542255071
 20
-96.7968715526
 10
283.6254649422
 20
-98.0204657785
 10
281.3071271612
 20
-99.0774332966
 10
279.0075108127
 20
-99.9639963357
 10
276.734848691
 20
-100.676977884
 10
274.4972764548
 20
-101.213825831
 10
272.3028033225
 20
-101.5726177175
 10
270.159284413
 20
-101.7520675774
 10
268.0743944039
 20
-101.7515381025
 10
266.0555959216
 20
-101.5710254302
 10
264.1101158336
 20
-101.2111819553
 10
262.2449175894
 20
-100.6732897113
 10
260.4666788305
 20
-99.9592793795
 10
258.781766365
 20
-99.0717021499
 10
257.1962098266
 20
-98.013738844
 10
255.715688503
 20
-96.7891740582
 10
254.3454970921
 20
-95.4023931182
 10
253.0905430675
 20
-93.8583623073
 10
251.9553203371
 20
-92.1626045286
 10
250.9438908032
 20
-90.321191699
 10
250.0598738266
 20
-88.3407188923
 10
249.3064383234
 20
-86.2282708781
 10
248.6862764235
 20
-83.9914129939
 10
248.2016140074
 20
-81.6381493206
 10
247.8541790959
 20
-79.1769078501
 10
247.6452202893
 20
-76.6164963809
 10
247.5754830601
 20
-73.9660823631
  0
ARC
  5
E2
330
1F
100
AcDbEntity
  8
0
  6
Continuous
 62
     7
370
    25
100
AcDbCircle
 10
368.7357330806
 20
-50.9287877131
 30
0.0
 40
20.93179300825517
100
AcDbArc
 50
53.3617422759
 51
59.9948802832
  0
LWPOLYLINE
  5
E3
330
1F
100
AcDbEntity
  8
0
  6
Continuous
 62
     7
370
    25
100
AcDbPolyline
 90
        3
 70
   128
 43
0.0
 10
318.8839388874
 20
-142.1504869987
 10
318.5071539642
 20
-141.9836015227
 10
316.708329104
 20
-141.0583646075
  0
ARC
  5
E4
330
1F
100
AcDbEntity
  8
0
  6
Continuous
 62
     7
370
    25
100
AcDbCircle
 10
368.4883126575
 20
-51.635267608
 30
0.0
 40
21.6525143397999
100
AcDbArc
 50
43.1087773782
 51
55.3009957339
  0
ARC
  5
E5
330
1F
100
AcDbEntity
  8
0
  6
Continuous
 62
     7
370
    25
100
AcDbCircle
 10
327.6608443433
 20
-122.3567149323
 30
0.0
 40
21.65757517622937
100
AcDbArc
 50
244.7050471175
 51
256.9811171658
  0
LINE
  5
E6
330
1F
100
AcDbEntity
  8
0
  6
Continuous
 62
     7
370
    25
100
AcDbLine
 10
415.5561284383
 20
-62.7444634238
 30
0.0
 11
415.770252868
 21
-62.9260744496
 31
0.0
  0
LWPOLYLINE
  5
E7
330
1F
100
AcDbEntity
  8
0
  6
Continuous
 62
     7
370
    25
100
AcDbPolyline
 90
        3
 70
   128
 43
0.0
 10
361.1960504596
 20
-157.6999182592
 10
361.1766708119
 20
-157.693271516
 10
360.8170264852
 20
-157.5656412219
  0
LWPOLYLINE
  5
E8
330
1F
100
AcDbEntity
  8
0
  6
Continuous
 62
     7
370
    25
100
AcDbPolyline
 90
       54
 70
   128
 43
0.0
 10
471.0125355088
 20
-94.4626477847
 10
472.0237964553
 20
-95.0910431989
 10
473.5547385806
 20
-96.2307435363
 10
474.9781482903
 20
-97.5346298892
 10
476.2889231815
 20
-98.9980325367
 10
477.4823770516
 20
-100.6157114497
 10
478.5542346295
 20
-102.3818760627
 10
479.5006631862
 20
-104.2902035275
 10
480.3182672663
 20
-106.3338676106
 10
481.0041282005
 20
-108.50554402
 10
481.5557830323
 20
-110.7974666776
 10
481.9712640307
 20
-113.2014254414
 10
482.249080251
 20
-115.7088170547
 10
482.3882359739
 20
-118.3106666313
 10
482.3882359739
 20
-120.9976584542
 10
482.249080251
 20
-123.7601738085
 10
481.9712640307
 20
-126.5883252022
 10
481.5557830323
 20
-129.471988116
 10
481.0041282005
 20
-132.400837885
 10
480.3182672663
 20
-135.3643924734
 10
479.5006631862
 20
-138.3520421341
 10
478.5542346295
 20
-141.3530927512
 10
477.4823770516
 20
-144.3567977819
 10
476.2889231815
 20
-147.3524092031
 10
474.9781482903
 20
-150.3292003267
 10
473.5547385806
 20
-153.2765205489
 10
472.0237964553
 20
-156.18380904
 10
470.3907983705
 20
-159.0406677443
 10
468.6615922014
 20
-161.8368674636
 10
466.8423682665
 20
-164.5623950035
 10
464.9396343025
 20
-167.207498038
 10
462.9602062451
 20
-169.7627056415
 10
460.9111687161
 20
-172.2188693495
 10
458.7998565843
 20
-174.5672011808
 10
456.6338273063
 20
-176.7992926458
 10
454.4208359025
 20
-178.9071504863
 10
452.168803346
 20
-180.8832331746
 10
449.8857915388
 20
-182.7204653599
 10
447.5799730181
 20
-184.4122705656
 10
445.2596023102
 20
-185.9525907683
 10
442.9329854723
 20
-187.3359131061
 10
440.6084512814
 20
-188.5572865115
 10
438.2943209413
 20
-189.6123391986
 10
435.9988784479
 20
-190.4972927295
 10
433.7303407904
 20
-191.2089792162
 10
431.4968291397
 20
-191.7448518703
 10
429.3063388846
 20
-192.1029931743
 10
427.166710656
 20
-192.2821164003
 10
425.0856033265
 20
-192.2815872803
 10
423.0704689859
 20
-192.1014049927
 10
421.1285186965
 20
-191.7422128053
 10
419.2667080053
 20
-191.2052973135
 10
417.4916961144
 20
-190.4925815923
 10
416.0170042268
 20
-189.7280259191
  0
LWPOLYLINE
  5
E9
330
1F
100
AcDbEntity
  8
0
  6
Continuous
 62
     1
370
    25
100
AcDbPolyline
 90
       55
 70
   128
 43
0.0
 10
381.2270066615
 20
-34.1327154679
 10
382.5081865625
 20
-35.1645830662
 10
383.9988283981
 20
-36.5913132985
 10
385.3760662353
 20
-38.1764266635
 10
386.6355642169
 20
-39.9149386806
 10
387.7733631735
 20
-41.8013797292
 10
388.7858806229
 20
-43.8298117788
 10
389.669934478
 20
-45.9938527262
 10
390.4227351443
 20
-48.2866976879
 10
391.0419223983
 20
-50.701127368
 10
391.5255443141
 20
-53.2295483615
 10
391.8720783367
 20
-55.8640045627
 10
392.0804365507
 20
-58.596206824
 10
392.1499630457
 20
-61.4175580509
 10
392.0804365507
 20
-64.3191828603
 10
391.8720783367
 20
-67.2919503949
 10
391.5255443141
 20
-70.3265062623
 10
391.0419223983
 20
-73.4133052343
 10
390.4227351443
 20
-76.5426333009
 10
389.669934478
 20
-79.7046434111
 10
388.7858806229
 20
-82.8893912134
 10
387.7733631735
 20
-86.0868510266
 10
386.6355642169
 20
-89.286966788
 10
385.3760662353
 20
-92.4796642216
 10
383.9988283981
 20
-95.6549025466
 10
382.5081865625
 20
-98.8026912085
 10
380.9088295654
 20
-101.9131233368
 10
379.2057886867
 20
-104.9764168089
 10
377.4044244788
 20
-107.9829309792
 10
375.5104056928
 20
-110.9232031795
 10
373.5296882053
 20
-113.7879852189
 10
371.4685071156
 20
-116.5682631555
 10
369.3333464529
 20
-119.255286951
 10
367.1309220542
 20
-121.8406077325
 10
364.8681670761
 20
-124.3160861558
 10
362.5521990675
 20
-126.6739387905
 10
360.190305482
 20
-128.9067373586
 10
357.7899179944
 20
-131.0074661464
 10
355.3585881345
 20
-132.9695117366
 10
352.9039668725
 20
-134.7866991279
 10
350.4337763012
 20
-136.4533141662
 10
347.9557892215
 20
-137.9641122883
 10
345.4778021418
 20
-139.3143371499
 10
343.0076115705
 20
-140.4997434381
 10
340.5529903085
 20
-141.5166014316
 10
338.1216604487
 20
-142.3617095457
 10
335.7212729611
 20
-143.0324091595
 10
333.3593793756
 20
-143.5265948798
 10
331.043411367
 20
-143.8427019909
 10
328.7806563888
 20
-143.9797448563
 10
326.5782319901
 20
-143.9372891592
 10
324.4430713275
 20
-143.7154693914
 10
322.3818902378
 20
-143.3149804858
 10
320.4011727502
 20
-142.7370861797
 10
318.8839388874
 20
-142.1504869987
  0
LWPOLYLINE
  5
EA
330
1F
100
AcDbEntity
  8
0
  6
Continuous
 62
     1
370
    25
100
AcDbPolyline
 90
       51
 70
   128
 43
0.0
 10
384.2958951915
 20
-36.8382506226
 10
385.5624053551
 20
-38.3062073311
 10
386.8215055758
 20
-40.0441702567
 10
387.9589462842
 20
-41.9300135478
 10
388.971144998
 20
-43.9578052577
 10
389.8549169961
 20
-46.121164804
 10
390.6074805864
 20
-48.4132857827
 10
391.2264729112
 20
-50.8269534608
 10
391.7099420447
 20
-53.3545759539
 10
392.056368066
 20
-55.9882001985
 10
392.2646604255
 20
-58.7195398987
 10
392.3341632129
 20
-61.5400015719
 10
392.2646604255
 20
-64.4407094553
 10
392.056368066
 20
-67.4125383948
 10
391.7099420447
 20
-70.44613761
 10
391.2264729112
 20
-73.5319616829
 10
390.6074805864
 20
-76.6603026869
 10
389.8549169961
 20
-79.8213150921
 10
388.971144998
 20
-83.005056068
 10
387.9589462842
 20
-86.2015075373
 10
386.8215055758
 20
-89.4006119167
 10
385.5624053551
 20
-92.5923010138
 10
384.1856021573
 20
-95.7665401313
 10
382.6954292054
 20
-98.9133341518
 10
381.0965779704
 20
-102.0227868513
 10
379.3940744641
 20
-105.0851100232
 10
377.5932818728
 20
-108.0906736686
 10
375.6998584111
 20
-111.03001816
 10
373.7197678579
 20
-113.8938968283
 10
371.659234776
 20
-116.6732987724
 10
369.5247484629
 20
-119.3594739546
 10
367.3230208043
 20
-121.9439788248
 10
365.0609796884
 20
-124.4186770802
 10
362.7457426642
 20
-126.7757822485
 10
360.3845945511
 20
-129.0078766978
 10
357.9849643897
 20
-131.1079431935
 10
355.5544023927
 20
-133.0693690785
 10
353.100555579
 20
-134.8859846744
 10
350.6311448891
 20
-136.5520734505
 10
348.1539399956
 20
-138.0623926494
 10
345.6767351022
 20
-139.4121933412
 10
343.2073244122
 20
-140.5972254598
 10
340.7534775985
 20
-141.6137610897
 10
338.3229156016
 20
-142.4586023533
 10
335.9232854401
 20
-143.1290898691
 10
333.562137327
 20
-143.623119004
 10
331.2469003029
 20
-143.9391296049
 10
328.984859187
 20
-144.0761284305
 10
326.7831315283
 20
-144.0336842056
 10
324.6486452153
 20
-143.8119344637
 10
322.781995539
 20
-143.4576010952
  0
LWPOLYLINE
  5
EB
330
1F
100
AcDbEntity
  8
0
  6
Continuous
 62
     1
370
    25
100
AcDbPolyline
 90
       50
 70
   128
 43
0.0
 10
415.770252868
 20
-62.9260744496
 10
416.9080939714
 20
-63.9890026326
 10
418.2193403805
 20
-65.4529300437
 10
419.4132236216
 20
-67.0711869488
 10
420.4854657895
 20
-68.8379873449
 10
421.432231521
 20
-70.7470007788
 10
422.250130629
 20
-72.791394934
 10
422.9362365418
 20
-74.9638516013
 10
423.4880915711
 20
-77.2565948171
 10
423.9037200835
 20
-79.6614167201
 10
424.1816337684
 20
-82.1697094911
 10
424.3208421749
 20
-84.7724908298
 10
424.3208421749
 20
-87.4604465394
 10
424.1816337684
 20
-90.223954483
 10
423.9037200835
 20
-93.0531195646
 10
423.4880915711
 20
-95.9378159336
 10
422.9362365418
 20
-98.867717404
 10
422.250130629
 20
-101.8323350966
 10
421.432231521
 20
-104.8210554613
 10
420.4854657895
 20
-107.8231813413
 10
419.4132236216
 20
-110.8279661932
 10
418.2193403805
 20
-113.8246513477
 10
416.9080939714
 20
-116.8025116378
 10
415.4841758654
 20
-119.7508858139
 10
413.9526831969
 20
-122.6592221713
 10
412.3191003245
 20
-125.5171028828
 10
410.5892751236
 20
-128.3143048341
 10
408.7693952784
 20
-131.0408102677
 10
406.8659803793
 20
-133.6868630565
 10
404.885842411
 20
-136.2429854302
 10
402.8360699463
 20
-138.7000327272
 10
400.7240004883
 20
-141.0492063198
 10
398.5571941278
 20
-143.2820961979
 10
396.3434085193
 20
-145.3907136663
 10
394.0905685872
 20
-147.3675027489
 10
391.8067375507
 20
-149.2053934182
 10
389.5000922274
 20
-150.8978067266
 10
387.1788891192
 20
-152.4386774262
 10
384.8514376585
 20
-153.8224967908
 10
382.5260696679
 20
-155.0443089526
 10
380.2111092324
 20
-156.0997404625
 10
377.9148432292
 20
-156.9850112192
 10
375.6454922692
 20
-157.6969542859
 10
373.4111791698
 20
-158.2330188816
 10
371.2199026125
 20
-158.5912855882
 10
369.079506521
 20
-158.7704779442
 10
366.9976537192
 20
-158.7699472334
 10
364.9817962967
 20
-158.5896987177
 10
363.0391505843
 20
-158.2303787072
 10
361.1960504596
 20
-157.6999182592
  0
LWPOLYLINE
  5
EC
330
1F
100
AcDbEntity
  8
0
  6
Continuous
 62
     1
370
    25
100
AcDbPolyline
 90
       52
 70
   128
 43
0.0
 10
415.0701146889
 20
-62.3383983934
 10
415.6715502172
 20
-62.8154901578
 10
417.0949599268
 20
-64.1193765107
 10
418.4057348181
 20
-65.5827791582
 10
419.5991886881
 20
-67.2004580712
 10
420.671046266
 20
-68.9666226842
 10
421.6174748227
 20
-70.874950149
 10
422.4350789028
 20
-72.9186142321
 10
423.120939837
 20
-75.0902906415
 10
423.6725946688
 20
-77.3822132991
 10
424.0880756673
 20
-79.7861720628
 10
424.3658918876
 20
-82.2935636762
 10
424.5050476105
 20
-84.8954132527
 10
424.5050476105
 20
-87.5824050756
 10
424.3658918876
 20
-90.3449204299
 10
424.0880756673
 20
-93.1730718237
 10
423.6725946688
 20
-96.0567347375
 10
423.120939837
 20
-98.9855845065
 10
422.4350789028
 20
-101.9491390949
 10
421.6174748227
 20
-104.9367887556
 10
420.671046266
 20
-107.9378393727
 10
419.5991886881
 20
-110.9415444033
 10
418.4057348181
 20
-113.9371558246
 10
417.0949599268
 20
-116.9139469481
 10
415.6715502172
 20
-119.8612671704
 10
414.1406080918
 20
-122.7685556614
 10
412.507610007
 20
-125.6254143657
 10
410.778403838
 20
-128.421614085
 10
408.959179903
 20
-131.1471416249
 10
407.056445939
 20
-133.7922446595
 10
405.0770178816
 20
-136.3474522629
 10
403.0279803526
 20
-138.803615971
 10
400.9166682208
 20
-141.1519478022
 10
398.7506389429
 20
-143.3840392673
 10
396.537647539
 20
-145.4918971078
 10
394.2856149825
 20
-147.467979796
 10
392.0026031753
 20
-149.3052119814
 10
389.6967846547
 20
-150.9970171871
 10
387.3764139468
 20
-152.5373373897
 10
385.0497971089
 20
-153.9206597276
 10
382.725262918
 20
-155.1420331329
 10
380.4111325778
 20
-156.1970858201
 10
378.1156900845
 20
-157.0820393509
 10
375.847152427
 20
-157.7937258377
 10
373.6136407762
 20
-158.3295984918
 10
371.4231505211
 20
-158.6877397958
 10
369.2835222925
 20
-158.8668630217
 10
367.2024149631
 20
-158.8663339017
 10
365.1872806225
 20
-158.6861516141
 10
363.245330333
 20
-158.3269594267
 10
361.3835196418
 20
-157.7900439349
 10
360.222339721
 20
-157.3478277086
  0
ENDSEC
  0
SECTION
  2
OBJECTS
  0
DICTIONARY
  5
C
330
0
100
AcDbDictionary
281
     1
  3
ACAD_GROUP
350
D
  3
ACAD_LAYOUT
350
1A
  3
ACAD_MLINESTYLE
350
17
  3
ACAD_PLOTSETTINGS
350
19
  3
ACAD_PLOTSTYLENAME
350
E
  3
ACAD_SCALELIST
350
47
  0
DICTIONARY
  5
D
102
{ACAD_REACTORS
330
C
102
}
330
C
100
AcDbDictionary
281
     1
  0
DICTIONARY
  5
1A
102
{ACAD_REACTORS
330
C
102
}
330
C
100
AcDbDictionary
281
     1
  3
Layout1
350
1E
  3
Layout2
350
26
  3
Model
350
22
  0
DICTIONARY
  5
17
102
{ACAD_REACTORS
330
C
102
}
330
C
100
AcDbDictionary
281
     1
  3
Standard
350
18
  0
DICTIONARY
  5
19
102
{ACAD_REACTORS
330
C
102
}
330
C
100
AcDbDictionary
281
     1
  0
ACDBDICTIONARYWDFLT
  5
E
102
{ACAD_REACTORS
330
C
102
}
330
C
100
AcDbDictionary
281
     1
  3
Normal
350
F
100
AcDbDictionaryWithDefault
340
F
  0
DICTIONARY
  5
47
102
{ACAD_REACTORS
330
C
102
}
330
C
100
AcDbDictionary
281
     1
  3
A0
350
48
  3
A1
350
49
  3
A2
350
4A
  3
A3
350
4B
  3
A4
350
4C
  3
A5
350
4D
  3
A6
350
4E
  3
A7
350
4F
  3
A8
350
50
  3
A9
350
51
  3
B0
350
52
  3
B1
350
53
  3
B2
350
54
  3
B3
350
55
  3
B4
350
56
  3
B5
350
57
  3
B6
350
58
  3
B7
350
59
  3
B8
350
5A
  3
B9
350
5B
  3
C0
350
5C
  3
C1
350
5D
  3
C2
350
5E
  3
C3
350
5F
  3
C4
350
60
  3
C5
350
61
  3
C6
350
62
  3
C7
350
63
  3
C8
350
64
  3
C9
350
65
  3
D0
350
66
  3
D1
350
67
  3
D2
350
68
  0
LAYOUT
  5
1E
102
{ACAD_REACTORS
330
1A
102
}
330
1A
100
AcDbPlotSettings
  1

  2
none_device
  4

  6

 40
0.0
 41
0.0
 42
0.0
 43
0.0
 44
0.0
 45
0.0
 46
0.0
 47
0.0
 48
0.0
 49
0.0
140
0.0
141
0.0
142
1.0
143
1.0
 70
   688
 72
     1
 73
     0
 74
     5
  7

 75
    16
147
1.0
148
0.0
149
0.0
100
AcDbLayout
  1
Layout1
 70
     1
 71
     1
 10
0.0
 20
0.0
 11
420.0
 21
297.0
 12
0.0
 22
0.0
 32
0.0
 14
1.0000000000E+20
 24
1.0000000000E+20
 34
1.0000000000E+20
 15
-1.0000000000E+20
 25
-1.0000000000E+20
 35
-1.0000000000E+20
146
0.0
 13
0.0
 23
0.0
 33
0.0
 16
1.0
 26
0.0
 36
0.0
 17
0.0
 27
1.0
 37
0.0
 76
     0
330
1B
  0
LAYOUT
  5
26
102
{ACAD_REACTORS
330
1A
102
}
330
1A
100
AcDbPlotSettings
  1

  2
none_device
  4

  6

 40
0.0
 41
0.0
 42
0.0
 43
0.0
 44
0.0
 45
0.0
 46
0.0
 47
0.0
 48
0.0
 49
0.0
140
0.0
141
0.0
142
1.0
143
1.0
 70
   688
 72
     1
 73
     0
 74
     5
  7

 75
    16
147
1.0
148
0.0
149
0.0
100
AcDbLayout
  1
Layout2
 70
     1
 71
     2
 10
0.0
 20
0.0
 11
0.0
 21
0.0
 12
0.0
 22
0.0
 32
0.0
 14
0.0
 24
0.0
 34
0.0
 15
0.0
 25
0.0
 35
0.0
146
0.0
 13
0.0
 23
0.0
 33
0.0
 16
1.0
 26
0.0
 36
0.0
 17
0.0
 27
1.0
 37
0.0
 76
     0
330
23
  0
LAYOUT
  5
22
102
{ACAD_REACTORS
330
1A
102
}
330
1A
100
AcDbPlotSettings
  1

  2
none_device
  4
Letter_(8.50_x_11.00_Inches)
  6

 40
6.35
 41
6.35
 42
6.35000508
 43
6.35000508
 44
215.9
 45
279.4
 46
0.0
 47
0.0
 48
0.0
 49
0.0
140
0.0
141
0.0
142
1.0
143
1.0
 70
  1712
 72
     1
 73
     0
 74
     0
  7

 75
     0
147
1.0
148
0.0
149
0.0
100
AcDbLayout
  1
Model
 70
     1
 71
     0
 10
0.0
 20
0.0
 11
279.4
 21
215.9
 12
0.0
 22
0.0
 32
0.0
 14
0.0
 24
0.0
 34
0.0
 15
279.4
 25
215.9
 35
0.0
146
0.0
 13
0.0
 23
0.0
 33
0.0
 16
1.0
 26
0.0
 36
0.0
 17
0.0
 27
1.0
 37
0.0
 76
     0
330
1F
331
29
  0
MLINESTYLE
  5
18
102
{ACAD_REACTORS
330
17
102
}
330
17
100
AcDbMlineStyle
  2
Standard
 70
     0
  3

 62
   256
 51
90.0
 52
90.0
 71
     2
 49
0.5
 62
   256
  6
BYLAYER
 49
-0.5
 62
   256
  6
BYLAYER
  0
ACDBPLACEHOLDER
  5
F
102
{ACAD_REACTORS
330
E
102
}
330
E
  0
SCALE
  5
48
102
{ACAD_REACTORS
330
47
102
}
330
47
100
AcDbScale
 70
     0
300
1:1
140
1.0
141
1.0
290
     1
  0
SCALE
  5
49
102
{ACAD_REACTORS
330
47
102
}
330
47
100
AcDbScale
 70
     0
300
1:2
140
1.0
141
2.0
290
     0
  0
SCALE
  5
4A
102
{ACAD_REACTORS
330
47
102
}
330
47
100
AcDbScale
 70
     0
300
1:4
140
1.0
141
4.0
290
     0
  0
SCALE
  5
4B
102
{ACAD_REACTORS
330
47
102
}
330
47
100
AcDbScale
 70
     0
300
1:5
140
1.0
141
5.0
290
     0
  0
SCALE
  5
4C
102
{ACAD_REACTORS
330
47
102
}
330
47
100
AcDbScale
 70
     0
300
1:8
140
1.0
141
8.0
290
     0
  0
SCALE
  5
4D
102
{ACAD_REACTORS
330
47
102
}
330
47
100
AcDbScale
 70
     0
300
1:10
140
1.0
141
10.0
290
     0
  0
SCALE
  5
4E
102
{ACAD_REACTORS
330
47
102
}
330
47
100
AcDbScale
 70
     0
300
1:16
140
1.0
141
16.0
290
     0
  0
SCALE
  5
4F
102
{ACAD_REACTORS
330
47
102
}
330
47
100
AcDbScale
 70
     0
300
1:20
140
1.0
141
20.0
290
     0
  0
SCALE
  5
50
102
{ACAD_REACTORS
330
47
102
}
330
47
100
AcDbScale
 70
     0
300
1:30
140
1.0
141
30.0
290
     0
  0
SCALE
  5
51
102
{ACAD_REACTORS
330
47
102
}
330
47
100
AcDbScale
 70
     0
300
1:40
140
1.0
141
40.0
290
     0
  0
SCALE
  5
52
102
{ACAD_REACTORS
330
47
102
}
330
47
100
AcDbScale
 70
     0
300
1:50
140
1.0
141
50.0
290
     0
  0
SCALE
  5
53
102
{ACAD_REACTORS
330
47
102
}
330
47
100
AcDbScale
 70
     0
300
1:100
140
1.0
141
100.0
290
     0
  0
SCALE
  5
54
102
{ACAD_REACTORS
330
47
102
}
330
47
100
AcDbScale
 70
     0
300
2:1
140
2.0
141
1.0
290
     0
  0
SCALE
  5
55
102
{ACAD_REACTORS
330
47
102
}
330
47
100
AcDbScale
 70
     0
300
4:1
140
4.0
141
1.0
290
     0
  0
SCALE
  5
56
102
{ACAD_REACTORS
330
47
102
}
330
47
100
AcDbScale
 70
     0
300
8:1
140
8.0
141
1.0
290
     0
  0
SCALE
  5
57
102
{ACAD_REACTORS
330
47
102
}
330
47
100
AcDbScale
 70
     0
300
10:1
140
10.0
141
1.0
290
     0
  0
SCALE
  5
58
102
{ACAD_REACTORS
330
47
102
}
330
47
100
AcDbScale
 70
     0
300
100:1
140
100.0
141
1.0
290
     0
  0
SCALE
  5
59
102
{ACAD_REACTORS
330
47
102
}
330
47
100
AcDbScale
 70
     0
300
1/128" = 1'-0"
140
0.0078125
141
12.0
290
     0
  0
SCALE
  5
5A
102
{ACAD_REACTORS
330
47
102
}
330
47
100
AcDbScale
 70
     0
300
1/64" = 1'-0"
140
0.015625
141
12.0
290
     0
  0
SCALE
  5
5B
102
{ACAD_REACTORS
330
47
102
}
330
47
100
AcDbScale
 70
     0
300
1/32" = 1'-0"
140
0.03125
141
12.0
290
     0
  0
SCALE
  5
5C
102
{ACAD_REACTORS
330
47
102
}
330
47
100
AcDbScale
 70
     0
300
1/16" = 1'-0"
140
0.0625
141
12.0
290
     0
  0
SCALE
  5
5D
102
{ACAD_REACTORS
330
47
102
}
330
47
100
AcDbScale
 70
     0
300
3/32" = 1'-0"
140
0.09375
141
12.0
290
     0
  0
SCALE
  5
5E
102
{ACAD_REACTORS
330
47
102
}
330
47
100
AcDbScale
 70
     0
300
1/8" = 1'-0"
140
0.125
141
12.0
290
     0
  0
SCALE
  5
5F
102
{ACAD_REACTORS
330
47
102
}
330
47
100
AcDbScale
 70
     0
300
3/16" = 1'-0"
140
0.1875
141
12.0
290
     0
  0
SCALE
  5
60
102
{ACAD_REACTORS
330
47
102
}
330
47
100
AcDbScale
 70
     0
300
1/4" = 1'-0"
140
0.25
141
12.0
290
     0
  0
SCALE
  5
61
102
{ACAD_REACTORS
330
47
102
}
330
47
100
AcDbScale
 70
     0
300
3/8" = 1'-0"
140
0.375
141
12.0
290
     0
  0
SCALE
  5
62
102
{ACAD_REACTORS
330
47
102
}
330
47
100
AcDbScale
 70
     0
300
1/2" = 1'-0"
140
0.5
141
12.0
290
     0
  0
SCALE
  5
63
102
{ACAD_REACTORS
330
47
102
}
330
47
100
AcDbScale
 70
     0
300
3/4" = 1'-0"
140
0.75
141
12.0
290
     0
  0
SCALE
  5
64
102
{ACAD_REACTORS
330
47
102
}
330
47
100
AcDbScale
 70
     0
300
1" = 1'-0"
140
1.0
141
12.0
290
     0
  0
SCALE
  5
65
102
{ACAD_REACTORS
330
47
102
}
330
47
100
AcDbScale
 70
     0
300
1-1/2" = 1'-0"
140
1.5
141
12.0
290
     0
  0
SCALE
  5
66
102
{ACAD_REACTORS
330
47
102
}
330
47
100
AcDbScale
 70
     0
300
3" = 1'-0"
140
3.0
141
12.0
290
     0
  0
SCALE
  5
67
102
{ACAD_REACTORS
330
47
102
}
330
47
100
AcDbScale
 70
     0
300
6" = 1'-0"
140
6.0
141
12.0
290
     0
  0
SCALE
  5
68
102
{ACAD_REACTORS
330
47
102
}
330
47
100
AcDbScale
 70
     0
300
1'-0" = 1'-0"
140
12.0
141
12.0
290
     0
  0
ENDSEC
  0
EOF
